ISO-10303-21;
HEADER;
/* Generated by software containing ST-Developer
 * from STEP Tools, Inc. (www.steptools.com) 
 */

FILE_DESCRIPTION(
/* description */ (''),
/* implementation_level */ '2;1');

FILE_NAME(
/* name */ 
'D:\\Documents\\Projects\\Linear Slider\\CAD\\3-Axis Slider CAD STEP E
xports\\5mm to 8mm shaft spacer.stp',
/* time_stamp */ '2020-09-01T18:59:21+01:00',
/* author */ ('isaac879'),
/* organization */ (''),
/* preprocessor_version */ 'ST-DEVELOPER v18',
/* originating_system */ 'Autodesk Inventor 2020',
/* authorisation */ '');

FILE_SCHEMA (('AUTOMOTIVE_DESIGN { 1 0 10303 214 3 1 1 }'));
ENDSEC;

DATA;
#10=MECHANICAL_DESIGN_GEOMETRIC_PRESENTATION_REPRESENTATION('',(#13),#350);
#11=SHAPE_REPRESENTATION_RELATIONSHIP('SRR','None',#357,#12);
#12=ADVANCED_BREP_SHAPE_REPRESENTATION('',(#14),#349);
#13=STYLED_ITEM('',(#366),#14);
#14=MANIFOLD_SOLID_BREP('Solid1',#156);
#15=FACE_BOUND('',#34,.T.);
#16=FACE_BOUND('',#36,.T.);
#17=FACE_BOUND('',#38,.T.);
#18=PLANE('',#180);
#19=PLANE('',#181);
#20=PLANE('',#190);
#21=PLANE('',#191);
#22=FACE_OUTER_BOUND('',#29,.T.);
#23=FACE_OUTER_BOUND('',#30,.T.);
#24=FACE_OUTER_BOUND('',#31,.T.);
#25=FACE_OUTER_BOUND('',#32,.T.);
#26=FACE_OUTER_BOUND('',#33,.T.);
#27=FACE_OUTER_BOUND('',#35,.T.);
#28=FACE_OUTER_BOUND('',#37,.T.);
#29=EDGE_LOOP('',(#104,#105,#106,#107,#108,#109,#110,#111,#112));
#30=EDGE_LOOP('',(#113,#114,#115,#116,#117));
#31=EDGE_LOOP('',(#118,#119,#120,#121));
#32=EDGE_LOOP('',(#122,#123,#124,#125,#126,#127,#128,#129));
#33=EDGE_LOOP('',(#130,#131,#132,#133,#134,#135));
#34=EDGE_LOOP('',(#136,#137));
#35=EDGE_LOOP('',(#138,#139));
#36=EDGE_LOOP('',(#140,#141));
#37=EDGE_LOOP('',(#142,#143));
#38=EDGE_LOOP('',(#144,#145));
#39=CIRCLE('',#177,2.);
#40=CIRCLE('',#178,2.);
#41=CIRCLE('',#179,2.);
#42=CIRCLE('',#183,2.5);
#43=CIRCLE('',#184,2.5);
#44=CIRCLE('',#186,4.);
#45=CIRCLE('',#187,4.);
#46=CIRCLE('',#188,4.);
#47=CIRCLE('',#189,4.);
#48=LINE('',#275,#56);
#49=LINE('',#322,#57);
#50=LINE('',#324,#58);
#51=LINE('',#325,#59);
#52=LINE('',#328,#60);
#53=LINE('',#330,#61);
#54=LINE('',#331,#62);
#55=LINE('',#341,#63);
#56=VECTOR('',#196,2.);
#57=VECTOR('',#205,10.);
#58=VECTOR('',#206,10.);
#59=VECTOR('',#207,10.);
#60=VECTOR('',#210,10.);
#61=VECTOR('',#211,10.);
#62=VECTOR('',#212,10.);
#63=VECTOR('',#225,4.);
#64=B_SPLINE_CURVE_WITH_KNOTS('',3,(#238,#239,#240,#241,#242,#243,#244,
#245,#246,#247,#248,#249,#250,#251,#252,#253,#254,#255,#256,#257,#258,#259,
#260,#261,#262,#263),.UNSPECIFIED.,.F.,.F.,(4,2,2,2,2,2,2,2,2,2,2,2,4),
(0.,0.0769830401762946,0.153966080352589,0.230739261017803,0.307512441683016,
0.384285622348229,0.461058803013442,0.538041843189737,0.615024883366032,
0.692007923542326,0.768990963718621,0.845764144383834,0.922537325049048),
 .UNSPECIFIED.);
#65=B_SPLINE_CURVE_WITH_KNOTS('',3,(#264,#265,#266,#267,#268,#269,#270,
#271,#272,#273),.UNSPECIFIED.,.F.,.F.,(4,2,2,2,4),(0.922537325049048,0.999310505714261,
1.07608368637947,1.15306672655577,1.23004976673206),.UNSPECIFIED.);
#66=B_SPLINE_CURVE_WITH_KNOTS('',3,(#279,#280,#281,#282,#283,#284,#285,
#286,#287,#288,#289,#290,#291,#292,#293,#294,#295,#296,#297),
 .UNSPECIFIED.,.F.,.F.,(4,2,2,2,3,2,2,2,4),(-0.196252041577039,-0.164058712258543,
-0.0820293561292715,-0.0410146780646359,0.,0.0410146780646356,0.0820293561292713,
0.164058712258543,0.196252041932621),.UNSPECIFIED.);
#67=B_SPLINE_CURVE_WITH_KNOTS('',3,(#301,#302,#303,#304,#305,#306,#307,
#308,#309,#310,#311,#312,#313,#314,#315,#316,#317,#318),.UNSPECIFIED.,.F.,
 .F.,(4,2,2,2,2,2,2,2,4),(0.449777778434697,0.481971108108775,0.564000464238047,
0.605015142302682,0.646029820367318,0.687044498431953,0.728059176496589,
0.81008853262586,0.842281862299939),.UNSPECIFIED.);
#68=VERTEX_POINT('',#236);
#69=VERTEX_POINT('',#237);
#70=VERTEX_POINT('',#274);
#71=VERTEX_POINT('',#276);
#72=VERTEX_POINT('',#278);
#73=VERTEX_POINT('',#298);
#74=VERTEX_POINT('',#300);
#75=VERTEX_POINT('',#321);
#76=VERTEX_POINT('',#323);
#77=VERTEX_POINT('',#327);
#78=VERTEX_POINT('',#329);
#79=VERTEX_POINT('',#336);
#80=VERTEX_POINT('',#337);
#81=VERTEX_POINT('',#340);
#82=VERTEX_POINT('',#342);
#83=EDGE_CURVE('',#68,#69,#64,.T.);
#84=EDGE_CURVE('',#69,#68,#65,.T.);
#85=EDGE_CURVE('',#69,#70,#48,.T.);
#86=EDGE_CURVE('',#71,#70,#39,.T.);
#87=EDGE_CURVE('',#72,#71,#66,.T.);
#88=EDGE_CURVE('',#73,#72,#40,.T.);
#89=EDGE_CURVE('',#74,#73,#67,.T.);
#90=EDGE_CURVE('',#70,#74,#41,.T.);
#91=EDGE_CURVE('',#75,#74,#49,.T.);
#92=EDGE_CURVE('',#75,#76,#50,.T.);
#93=EDGE_CURVE('',#76,#71,#51,.T.);
#94=EDGE_CURVE('',#72,#77,#52,.T.);
#95=EDGE_CURVE('',#78,#77,#53,.T.);
#96=EDGE_CURVE('',#73,#78,#54,.T.);
#97=EDGE_CURVE('',#77,#78,#42,.T.);
#98=EDGE_CURVE('',#76,#75,#43,.T.);
#99=EDGE_CURVE('',#79,#80,#44,.T.);
#100=EDGE_CURVE('',#80,#79,#45,.T.);
#101=EDGE_CURVE('',#80,#81,#55,.T.);
#102=EDGE_CURVE('',#81,#82,#46,.T.);
#103=EDGE_CURVE('',#82,#81,#47,.T.);
#104=ORIENTED_EDGE('',*,*,#83,.F.);
#105=ORIENTED_EDGE('',*,*,#84,.F.);
#106=ORIENTED_EDGE('',*,*,#85,.T.);
#107=ORIENTED_EDGE('',*,*,#86,.F.);
#108=ORIENTED_EDGE('',*,*,#87,.F.);
#109=ORIENTED_EDGE('',*,*,#88,.F.);
#110=ORIENTED_EDGE('',*,*,#89,.F.);
#111=ORIENTED_EDGE('',*,*,#90,.F.);
#112=ORIENTED_EDGE('',*,*,#85,.F.);
#113=ORIENTED_EDGE('',*,*,#86,.T.);
#114=ORIENTED_EDGE('',*,*,#90,.T.);
#115=ORIENTED_EDGE('',*,*,#91,.F.);
#116=ORIENTED_EDGE('',*,*,#92,.T.);
#117=ORIENTED_EDGE('',*,*,#93,.T.);
#118=ORIENTED_EDGE('',*,*,#88,.T.);
#119=ORIENTED_EDGE('',*,*,#94,.T.);
#120=ORIENTED_EDGE('',*,*,#95,.F.);
#121=ORIENTED_EDGE('',*,*,#96,.F.);
#122=ORIENTED_EDGE('',*,*,#89,.T.);
#123=ORIENTED_EDGE('',*,*,#96,.T.);
#124=ORIENTED_EDGE('',*,*,#97,.F.);
#125=ORIENTED_EDGE('',*,*,#94,.F.);
#126=ORIENTED_EDGE('',*,*,#87,.T.);
#127=ORIENTED_EDGE('',*,*,#93,.F.);
#128=ORIENTED_EDGE('',*,*,#98,.T.);
#129=ORIENTED_EDGE('',*,*,#91,.T.);
#130=ORIENTED_EDGE('',*,*,#99,.F.);
#131=ORIENTED_EDGE('',*,*,#100,.F.);
#132=ORIENTED_EDGE('',*,*,#101,.T.);
#133=ORIENTED_EDGE('',*,*,#102,.T.);
#134=ORIENTED_EDGE('',*,*,#103,.T.);
#135=ORIENTED_EDGE('',*,*,#101,.F.);
#136=ORIENTED_EDGE('',*,*,#83,.T.);
#137=ORIENTED_EDGE('',*,*,#84,.T.);
#138=ORIENTED_EDGE('',*,*,#99,.T.);
#139=ORIENTED_EDGE('',*,*,#100,.T.);
#140=ORIENTED_EDGE('',*,*,#97,.T.);
#141=ORIENTED_EDGE('',*,*,#95,.T.);
#142=ORIENTED_EDGE('',*,*,#103,.F.);
#143=ORIENTED_EDGE('',*,*,#102,.F.);
#144=ORIENTED_EDGE('',*,*,#98,.F.);
#145=ORIENTED_EDGE('',*,*,#92,.F.);
#146=CYLINDRICAL_SURFACE('',#176,2.);
#147=CYLINDRICAL_SURFACE('',#182,2.5);
#148=CYLINDRICAL_SURFACE('',#185,4.);
#149=ADVANCED_FACE('',(#22),#146,.F.);
#150=ADVANCED_FACE('',(#23),#18,.T.);
#151=ADVANCED_FACE('',(#24),#19,.T.);
#152=ADVANCED_FACE('',(#25),#147,.F.);
#153=ADVANCED_FACE('',(#26,#15),#148,.T.);
#154=ADVANCED_FACE('',(#27,#16),#20,.T.);
#155=ADVANCED_FACE('',(#28,#17),#21,.F.);
#156=CLOSED_SHELL('',(#149,#150,#151,#152,#153,#154,#155));
#157=DERIVED_UNIT_ELEMENT(#159,1.);
#158=DERIVED_UNIT_ELEMENT(#352,3.);
#159=(
MASS_UNIT()
NAMED_UNIT(*)
SI_UNIT($,.GRAM.)
);
#160=DERIVED_UNIT((#157,#158));
#161=MEASURE_REPRESENTATION_ITEM('density measure',
POSITIVE_RATIO_MEASURE(1.),#160);
#162=PROPERTY_DEFINITION_REPRESENTATION(#167,#164);
#163=PROPERTY_DEFINITION_REPRESENTATION(#168,#165);
#164=REPRESENTATION('material name',(#166),#349);
#165=REPRESENTATION('density',(#161),#349);
#166=DESCRIPTIVE_REPRESENTATION_ITEM('Generic','Generic');
#167=PROPERTY_DEFINITION('material property','material name',#359);
#168=PROPERTY_DEFINITION('material property','density of part',#359);
#169=DATE_TIME_ROLE('creation_date');
#170=APPLIED_DATE_AND_TIME_ASSIGNMENT(#171,#169,(#359));
#171=DATE_AND_TIME(#172,#173);
#172=CALENDAR_DATE(2020,5,3);
#173=LOCAL_TIME(19,59,59.,#174);
#174=COORDINATED_UNIVERSAL_TIME_OFFSET(0,0,.BEHIND.);
#175=AXIS2_PLACEMENT_3D('placement',#234,#192,#193);
#176=AXIS2_PLACEMENT_3D('',#235,#194,#195);
#177=AXIS2_PLACEMENT_3D('',#277,#197,#198);
#178=AXIS2_PLACEMENT_3D('',#299,#199,#200);
#179=AXIS2_PLACEMENT_3D('',#319,#201,#202);
#180=AXIS2_PLACEMENT_3D('',#320,#203,#204);
#181=AXIS2_PLACEMENT_3D('',#326,#208,#209);
#182=AXIS2_PLACEMENT_3D('',#332,#213,#214);
#183=AXIS2_PLACEMENT_3D('',#333,#215,#216);
#184=AXIS2_PLACEMENT_3D('',#334,#217,#218);
#185=AXIS2_PLACEMENT_3D('',#335,#219,#220);
#186=AXIS2_PLACEMENT_3D('',#338,#221,#222);
#187=AXIS2_PLACEMENT_3D('',#339,#223,#224);
#188=AXIS2_PLACEMENT_3D('',#343,#226,#227);
#189=AXIS2_PLACEMENT_3D('',#344,#228,#229);
#190=AXIS2_PLACEMENT_3D('',#345,#230,#231);
#191=AXIS2_PLACEMENT_3D('',#346,#232,#233);
#192=DIRECTION('axis',(0.,0.,1.));
#193=DIRECTION('refdir',(1.,0.,0.));
#194=DIRECTION('center_axis',(-1.,0.,0.));
#195=DIRECTION('ref_axis',(0.,0.,1.));
#196=DIRECTION('',(-1.,0.,0.));
#197=DIRECTION('center_axis',(1.,0.,0.));
#198=DIRECTION('ref_axis',(0.,0.,1.));
#199=DIRECTION('center_axis',(1.,0.,0.));
#200=DIRECTION('ref_axis',(0.,0.,1.));
#201=DIRECTION('center_axis',(1.,0.,0.));
#202=DIRECTION('ref_axis',(0.,0.,1.));
#203=DIRECTION('center_axis',(-1.,0.,0.));
#204=DIRECTION('ref_axis',(0.,-1.,0.));
#205=DIRECTION('',(0.,0.,1.));
#206=DIRECTION('',(0.,-1.,0.));
#207=DIRECTION('',(0.,0.,1.));
#208=DIRECTION('center_axis',(-1.,0.,0.));
#209=DIRECTION('ref_axis',(0.,-1.,0.));
#210=DIRECTION('',(0.,0.,1.));
#211=DIRECTION('',(0.,-1.,0.));
#212=DIRECTION('',(0.,0.,1.));
#213=DIRECTION('center_axis',(0.,0.,1.));
#214=DIRECTION('ref_axis',(-1.,0.,0.));
#215=DIRECTION('center_axis',(0.,0.,-1.));
#216=DIRECTION('ref_axis',(-1.,0.,0.));
#217=DIRECTION('center_axis',(0.,0.,-1.));
#218=DIRECTION('ref_axis',(-1.,0.,0.));
#219=DIRECTION('center_axis',(0.,0.,1.));
#220=DIRECTION('ref_axis',(1.,0.,0.));
#221=DIRECTION('center_axis',(0.,0.,1.));
#222=DIRECTION('ref_axis',(1.,0.,0.));
#223=DIRECTION('center_axis',(0.,0.,1.));
#224=DIRECTION('ref_axis',(1.,0.,0.));
#225=DIRECTION('',(0.,0.,-1.));
#226=DIRECTION('center_axis',(0.,0.,1.));
#227=DIRECTION('ref_axis',(1.,0.,0.));
#228=DIRECTION('center_axis',(0.,0.,1.));
#229=DIRECTION('ref_axis',(1.,0.,0.));
#230=DIRECTION('center_axis',(0.,0.,1.));
#231=DIRECTION('ref_axis',(1.,0.,0.));
#232=DIRECTION('center_axis',(0.,0.,1.));
#233=DIRECTION('ref_axis',(1.,0.,0.));
#234=CARTESIAN_POINT('',(0.,0.,0.));
#235=CARTESIAN_POINT('Origin',(2.2,0.,4.));
#236=CARTESIAN_POINT('',(3.46410161513776,-2.,4.));
#237=CARTESIAN_POINT('',(4.,-2.44929359829471E-16,2.));
#238=CARTESIAN_POINT('Ctrl Pts',(3.46410161513776,-2.,4.));
#239=CARTESIAN_POINT('Ctrl Pts',(3.46410161513776,-2.,4.25661013392098));
#240=CARTESIAN_POINT('Ctrl Pts',(3.49565087190587,-1.94777116895352,4.52627720252657));
#241=CARTESIAN_POINT('Ctrl Pts',(3.60239202492136,-1.74245741947245,5.01716471901564));
#242=CARTESIAN_POINT('Ctrl Pts',(3.67540093509767,-1.58951165626207,5.23891546848412));
#243=CARTESIAN_POINT('Ctrl Pts',(3.807733220141,-1.23939333961253,5.58903378513366));
#244=CARTESIAN_POINT('Ctrl Pts',(3.87652968207896,-1.01748151622875,5.74233015984916));
#245=CARTESIAN_POINT('Ctrl Pts',(3.97318393670131,-0.525890150977711,5.94792781173826));
#246=CARTESIAN_POINT('Ctrl Pts',(4.,-0.255910602217378,6.));
#247=CARTESIAN_POINT('Ctrl Pts',(4.,0.255910602217378,6.));
#248=CARTESIAN_POINT('Ctrl Pts',(3.97318393670131,0.525890150977711,5.94792781173826));
#249=CARTESIAN_POINT('Ctrl Pts',(3.87652968207896,1.01748151622875,5.74233015984916));
#250=CARTESIAN_POINT('Ctrl Pts',(3.807733220141,1.23939333961253,5.58903378513366));
#251=CARTESIAN_POINT('Ctrl Pts',(3.67540093509767,1.58951165626207,5.23891546848412));
#252=CARTESIAN_POINT('Ctrl Pts',(3.60239202492136,1.74245741947245,5.01716471901564));
#253=CARTESIAN_POINT('Ctrl Pts',(3.49565087190587,1.94777116895352,4.52627720252657));
#254=CARTESIAN_POINT('Ctrl Pts',(3.46410161513776,2.,4.25661013392098));
#255=CARTESIAN_POINT('Ctrl Pts',(3.46410161513776,2.,3.74338986607902));
#256=CARTESIAN_POINT('Ctrl Pts',(3.49565087190587,1.94777116895352,3.47372279747343));
#257=CARTESIAN_POINT('Ctrl Pts',(3.60239202492136,1.74245741947245,2.98283528098436));
#258=CARTESIAN_POINT('Ctrl Pts',(3.67540093509767,1.58951165626207,2.76108453151588));
#259=CARTESIAN_POINT('Ctrl Pts',(3.807733220141,1.23939333961253,2.41096621486634));
#260=CARTESIAN_POINT('Ctrl Pts',(3.87652968207896,1.01748151622875,2.25766984015084));
#261=CARTESIAN_POINT('Ctrl Pts',(3.97318393670131,0.525890150977711,2.05207218826175));
#262=CARTESIAN_POINT('Ctrl Pts',(4.,0.255910602217378,2.));
#263=CARTESIAN_POINT('Ctrl Pts',(4.,1.38777878078145E-16,2.));
#264=CARTESIAN_POINT('Ctrl Pts',(4.,3.46944695195361E-16,2.));
#265=CARTESIAN_POINT('Ctrl Pts',(4.,-0.255910602217377,2.));
#266=CARTESIAN_POINT('Ctrl Pts',(3.97318393670131,-0.525890150977711,2.05207218826174));
#267=CARTESIAN_POINT('Ctrl Pts',(3.87652968207896,-1.01748151622875,2.25766984015084));
#268=CARTESIAN_POINT('Ctrl Pts',(3.807733220141,-1.23939333961252,2.41096621486634));
#269=CARTESIAN_POINT('Ctrl Pts',(3.67540093509767,-1.58951165626207,2.76108453151588));
#270=CARTESIAN_POINT('Ctrl Pts',(3.60239202492136,-1.74245741947245,2.98283528098436));
#271=CARTESIAN_POINT('Ctrl Pts',(3.49565087190587,-1.94777116895352,3.47372279747343));
#272=CARTESIAN_POINT('Ctrl Pts',(3.46410161513776,-2.,3.74338986607902));
#273=CARTESIAN_POINT('Ctrl Pts',(3.46410161513776,-2.,4.));
#274=CARTESIAN_POINT('',(2.2,-2.44929359829471E-16,2.));
#275=CARTESIAN_POINT('',(2.2,-2.44929359829471E-16,2.));
#276=CARTESIAN_POINT('',(2.2,-1.18743420870379,2.39065230605689));
#277=CARTESIAN_POINT('Origin',(2.2,0.,4.));
#278=CARTESIAN_POINT('',(2.2,-1.18743420870379,5.60934769394311));
#279=CARTESIAN_POINT('Ctrl Pts',(2.2,-1.18743420870379,5.60934769394311));
#280=CARTESIAN_POINT('Ctrl Pts',(2.15539954219369,-1.27006700339226,5.54837826667567));
#281=CARTESIAN_POINT('Ctrl Pts',(2.1083872154992,-1.34594127509526,5.48248584965093));
#282=CARTESIAN_POINT('Ctrl Pts',(1.94221765926252,-1.58817294729622,5.24025417744997));
#283=CARTESIAN_POINT('Ctrl Pts',(1.80355304490617,-1.73787037853375,5.02400511828502));
#284=CARTESIAN_POINT('Ctrl Pts',(1.636088059686,-1.89181531788227,4.66198919435318));
#285=CARTESIAN_POINT('Ctrl Pts',(1.58742434386391,-1.9318177200612,4.53488609120275));
#286=CARTESIAN_POINT('Ctrl Pts',(1.51926414856569,-1.98589696383213,4.27227671693351));
#287=CARTESIAN_POINT('Ctrl Pts',(1.5,-2.,4.13671559354879));
#288=CARTESIAN_POINT('Ctrl Pts',(1.5,-2.,4.));
#289=CARTESIAN_POINT('Ctrl Pts',(1.5,-2.,3.86328440645122));
#290=CARTESIAN_POINT('Ctrl Pts',(1.51926414856569,-1.98589696383213,3.72772328306649));
#291=CARTESIAN_POINT('Ctrl Pts',(1.58742434386391,-1.9318177200612,3.46511390879725));
#292=CARTESIAN_POINT('Ctrl Pts',(1.636088059686,-1.89181531788227,3.33801080564683));
#293=CARTESIAN_POINT('Ctrl Pts',(1.80355304490617,-1.73787037853375,2.97599488171498));
#294=CARTESIAN_POINT('Ctrl Pts',(1.94221765926252,-1.58817294729622,2.75974582255003));
#295=CARTESIAN_POINT('Ctrl Pts',(2.10838721601649,-1.34594127434118,2.51751414959499));
#296=CARTESIAN_POINT('Ctrl Pts',(2.15539954234414,-1.27006700311351,2.45162173311866));
#297=CARTESIAN_POINT('Ctrl Pts',(2.2,-1.18743420870379,2.39065230605689));
#298=CARTESIAN_POINT('',(2.2,1.18743420870379,5.60934769394311));
#299=CARTESIAN_POINT('Origin',(2.2,0.,4.));
#300=CARTESIAN_POINT('',(2.2,1.18743420870379,2.39065230605689));
#301=CARTESIAN_POINT('Ctrl Pts',(2.2,1.18743420870379,2.39065230605689));
#302=CARTESIAN_POINT('Ctrl Pts',(2.15539954234414,1.27006700311351,2.45162173311866));
#303=CARTESIAN_POINT('Ctrl Pts',(2.10838721601649,1.34594127434118,2.51751414959499));
#304=CARTESIAN_POINT('Ctrl Pts',(1.94221765926252,1.58817294729622,2.75974582255003));
#305=CARTESIAN_POINT('Ctrl Pts',(1.80355304490617,1.73787037853375,2.97599488171498));
#306=CARTESIAN_POINT('Ctrl Pts',(1.636088059686,1.89181531788227,3.33801080564683));
#307=CARTESIAN_POINT('Ctrl Pts',(1.58742434386391,1.9318177200612,3.46511390879725));
#308=CARTESIAN_POINT('Ctrl Pts',(1.51926414856569,1.98589696383213,3.72772328306649));
#309=CARTESIAN_POINT('Ctrl Pts',(1.5,2.,3.86328440645121));
#310=CARTESIAN_POINT('Ctrl Pts',(1.5,2.,4.13671559354879));
#311=CARTESIAN_POINT('Ctrl Pts',(1.51926414856569,1.98589696383213,4.27227671693351));
#312=CARTESIAN_POINT('Ctrl Pts',(1.58742434386391,1.9318177200612,4.53488609120275));
#313=CARTESIAN_POINT('Ctrl Pts',(1.636088059686,1.89181531788227,4.66198919435317));
#314=CARTESIAN_POINT('Ctrl Pts',(1.80355304490617,1.73787037853375,5.02400511828502));
#315=CARTESIAN_POINT('Ctrl Pts',(1.94221765926252,1.58817294729622,5.24025417744997));
#316=CARTESIAN_POINT('Ctrl Pts',(2.10838721601649,1.34594127434118,5.48248585040501));
#317=CARTESIAN_POINT('Ctrl Pts',(2.15539954234414,1.27006700311351,5.54837826688134));
#318=CARTESIAN_POINT('Ctrl Pts',(2.2,1.18743420870379,5.60934769394311));
#319=CARTESIAN_POINT('Origin',(2.2,0.,4.));
#320=CARTESIAN_POINT('Origin',(2.2,1.18743420870379,0.));
#321=CARTESIAN_POINT('',(2.2,1.18743420870379,0.));
#322=CARTESIAN_POINT('',(2.2,1.18743420870379,0.));
#323=CARTESIAN_POINT('',(2.2,-1.18743420870379,0.));
#324=CARTESIAN_POINT('',(2.2,1.18743420870379,0.));
#325=CARTESIAN_POINT('',(2.2,-1.18743420870379,0.));
#326=CARTESIAN_POINT('Origin',(2.2,1.18743420870379,0.));
#327=CARTESIAN_POINT('',(2.2,-1.18743420870379,16.));
#328=CARTESIAN_POINT('',(2.2,-1.18743420870379,0.));
#329=CARTESIAN_POINT('',(2.2,1.18743420870379,16.));
#330=CARTESIAN_POINT('',(2.2,1.18743420870379,16.));
#331=CARTESIAN_POINT('',(2.2,1.18743420870379,0.));
#332=CARTESIAN_POINT('Origin',(0.,0.,0.));
#333=CARTESIAN_POINT('Origin',(0.,0.,16.));
#334=CARTESIAN_POINT('Origin',(0.,0.,0.));
#335=CARTESIAN_POINT('Origin',(0.,0.,0.));
#336=CARTESIAN_POINT('',(4.,0.,16.));
#337=CARTESIAN_POINT('',(-4.,-4.89858719658941E-16,16.));
#338=CARTESIAN_POINT('Origin',(0.,0.,16.));
#339=CARTESIAN_POINT('Origin',(0.,0.,16.));
#340=CARTESIAN_POINT('',(-4.,-4.89858719658941E-16,0.));
#341=CARTESIAN_POINT('',(-4.,-4.89858719658941E-16,0.));
#342=CARTESIAN_POINT('',(4.,0.,0.));
#343=CARTESIAN_POINT('Origin',(0.,0.,0.));
#344=CARTESIAN_POINT('Origin',(0.,0.,0.));
#345=CARTESIAN_POINT('Origin',(0.,0.,16.));
#346=CARTESIAN_POINT('Origin',(0.,0.,0.));
#347=UNCERTAINTY_MEASURE_WITH_UNIT(LENGTH_MEASURE(0.01),#351,
'DISTANCE_ACCURACY_VALUE',
'Maximum model space distance between geometric entities at asserted c
onnectivities');
#348=UNCERTAINTY_MEASURE_WITH_UNIT(LENGTH_MEASURE(0.01),#351,
'DISTANCE_ACCURACY_VALUE',
'Maximum model space distance between geometric entities at asserted c
onnectivities');
#349=(
GEOMETRIC_REPRESENTATION_CONTEXT(3)
GLOBAL_UNCERTAINTY_ASSIGNED_CONTEXT((#347))
GLOBAL_UNIT_ASSIGNED_CONTEXT((#351,#353,#354))
REPRESENTATION_CONTEXT('','3D')
);
#350=(
GEOMETRIC_REPRESENTATION_CONTEXT(3)
GLOBAL_UNCERTAINTY_ASSIGNED_CONTEXT((#348))
GLOBAL_UNIT_ASSIGNED_CONTEXT((#351,#353,#354))
REPRESENTATION_CONTEXT('','3D')
);
#351=(
LENGTH_UNIT()
NAMED_UNIT(*)
SI_UNIT(.MILLI.,.METRE.)
);
#352=(
LENGTH_UNIT()
NAMED_UNIT(*)
SI_UNIT(.CENTI.,.METRE.)
);
#353=(
NAMED_UNIT(*)
PLANE_ANGLE_UNIT()
SI_UNIT($,.RADIAN.)
);
#354=(
NAMED_UNIT(*)
SI_UNIT($,.STERADIAN.)
SOLID_ANGLE_UNIT()
);
#355=SHAPE_DEFINITION_REPRESENTATION(#356,#357);
#356=PRODUCT_DEFINITION_SHAPE('',$,#359);
#357=SHAPE_REPRESENTATION('',(#175),#349);
#358=PRODUCT_DEFINITION_CONTEXT('part definition',#363,'design');
#359=PRODUCT_DEFINITION('5mm to 8mm shaft spacer',
'5mm to 8mm shaft spacer',#360,#358);
#360=PRODUCT_DEFINITION_FORMATION('',$,#365);
#361=PRODUCT_RELATED_PRODUCT_CATEGORY('5mm to 8mm shaft spacer',
'5mm to 8mm shaft spacer',(#365));
#362=APPLICATION_PROTOCOL_DEFINITION('international standard',
'automotive_design',2009,#363);
#363=APPLICATION_CONTEXT(
'Core Data for Automotive Mechanical Design Process');
#364=PRODUCT_CONTEXT('part definition',#363,'mechanical');
#365=PRODUCT('5mm to 8mm shaft spacer','5mm to 8mm shaft spacer',$,(#364));
#366=PRESENTATION_STYLE_ASSIGNMENT((#367));
#367=SURFACE_STYLE_USAGE(.BOTH.,#370);
#368=SURFACE_STYLE_RENDERING_WITH_PROPERTIES($,#374,(#369));
#369=SURFACE_STYLE_TRANSPARENT(0.);
#370=SURFACE_SIDE_STYLE('',(#371,#368));
#371=SURFACE_STYLE_FILL_AREA(#372);
#372=FILL_AREA_STYLE('',(#373));
#373=FILL_AREA_STYLE_COLOUR('',#374);
#374=COLOUR_RGB('',0.749019607843137,0.749019607843137,0.749019607843137);
ENDSEC;
END-ISO-10303-21;
